Wednesday, April 18, 2018

Chord Lagu - Menunggu Kamu by.Anji

  Sobat gitar.. chord gitar kita kali ini  chord lagu Menunggu Kamu dari Anji. Berbeda dengan yang lain chord lagu Menunggu Kamu By. Anji akan kita mainkan dalam chord gitar A sebagai chord dasarnya.

  Meski pada chord originalnya menggunakan chord gitar C. Saya jamin sobat tidak akan kecewa dengan chord yang saya bagikan ini.

  Kenapa saya memilih chord gitar A untuk penggunaan kunci gitar lagu menunggu kamu dari Anji ini?..

  Jawabannya:

 "Setiap orang memiliki vocal range yang tidak sama, sehingga dengan menggunakan chord original mungkin akan sedikit sulit bagi beberapa orang yang belum terbiasa dengan nada-nada tinggi. Nah dengan menggunakan chord A sebagai chord dasar pada lagu menunggu kamu by.Anji ini, saya yakin nada yang tinggi pada bagian reff akan bisa dijangkau dengan mudah".

 Btw.. lagu Menunggu Kamu ini di ciptakan oleh Anji dan di jadikan OST. dari sebuah film layar lebar berjudul Jelita Sejuba. Lantas lagu ini menjadi populer dan menduduki peringkat yang tinggi di lagu populer 2018. Hebat ya mas Anji ini..  Sukses terus buat mas Anji yang karya-karyanya bisa menginsfirasi generasi muda jaman sekarang.

  Yup..langsung aja check it out..!

Chord lagu Menunggu Kamu by.Anji

[OST Jelita Sejuba]

intro: A-E/G#-F#m-E..
       D-A/C#-E..

 A     E/G#          F#m   E..
Ku selalu mencoba

    D      C#m               Bm..
Untuk menguatkan hati

           E                A           D              E ..
Dari kamu yang belum juga kembali


      A    E/G#     C#m    E..
Ada satu keyakinan

          D       C#m             Bm..
Yang membuatku bertahan

              E     A          D                 E..
Penantian ini kan terbayar pasti


Reff:

           A            C#..
Lihat aku sayang

          F#m             F..
Yang sudah berjuang

                  Bm       F#/A#..
Menunggumu datang

         Bm                 E..
Menjemputmu pulang


E/G#      A         C#
Ingat selalu sayang

  F#m                    F#
Hatiku kau genggam

 Bm               C#m
Aku tak kan pergi

  D                            G   A  E/G#  F#m E..
Menunggu kamu disini...

              D    E..
Tetap disini...


 A        E/G#           F#m  E..
Jika bukan kepadamu

 D   C#m        Bm..
Aku tidak tau lagi

               E      A       D             E..
Pada siapa rindu ini kan kuberi

               E      A        D           E..
Pada siapa rindu ini kan kuberi


Reff:

             A        C#..
Lihat aku sayang

                  F#m         F#..
Yang sudah berjuang

                    Bm     F#/A#..
Menunggumu datang

      Bm                      E..
Menjemputmu pulang

 E/G#        A          C#..
Ingat selalu sayang

      F#m                   F#..
Hatiku kau genggam

   Bm               C#m..
Aku tak kan pergi

  D                            E    A  Bm Esus4 E..
Menunggu kamu disini

         A      Bm E..  
Tetap disini...


              A        C#..
Lihat aku sayang

           F#m         F#..
Yang sudah berjuang

                    Bm     F#/A#..
Menunggumu datang

               Bm         E..
Menjemputmu pulang

     E/G#    A      C#..
Ingat selalu sayang

    F#m                F#..
Hatiku kau genggam

  Bm           C#m D..
Aku tak kan pergi

 C#m Bm         C#m..
A..ku tak kan pergi

  D                           E    A  G#/C E A..
Menunggu kamu disini...

        ...selesai...


  Buat sobat gitar yang belum tau chord gitarnya..tenang aja, nih ane kasih chord gitar dari lagu menunggu kamu ciptaan mas.Anji ini. 

Check aja gambar dibawah sob!

Kunci gitar lagu menunggu kamu Anji

Jika diantara sobat ada yang suka dengan gitar fingerstyle, dibawah ini saya kasih tab gitar [fingerstyle] dalam chord dasar C, intro dari lagu menunggu kamu by. Anji :


Tab Gitar Intro Anji-Menunggu Kamu

Tab by: Juanda Rijaludin

    1
E-----3------------3----1----0-----------------
B---------------1------------------3----1-------
G--4------0-------------------------------------
D--4---------------------------------------------
A-----3------------3----2--------------2-------
E------------------------------------------------

    2
E-----0-----------------------------------------
B----------------1----------------------1-------
G----------0----------0-----------0---------0--
D-------------------------2--3------------------
A-----0---------------0-------------------------
E-----------------------------3--------------3--

    3
E-----1---------------1----0----------------0--
B-----1---------1----------------------1--------
G----------0----------0----------0----------0--
D-----3---------------------2-------------------
A------------------------------------------------
E------------------------------------------------

    4
E---------------------------3-------------------
B-----3---------0----3----------------0----3--
G----------0---------------------0-------------
D---------------0-------------------------------
A---------------------------2-------------------
E-----3--------------------------------3--------

    5                                      P.H                   P.H
E-----7-----------------------------------------
B---------------7-------------------------------
G------------------------7----------------------
D-----------------------------------------------
A-----------------------------------------------
E-----------------------------------------------

Jika sobat masih bingung dalam tempo tab gitar diatas, sobat bisa lihat pada video dibawah ini bagaimana untuk memainkan tab gitar intro dari lagu Anji-Menunggu kamu dengan fingerstyle tablature.


  Sobat gitar yang berbahagia, sekian dari saya. Semoga chord lagu ini bisa bermanfaat buat sobat, terima kasih atas kunjungannya.

AutoScroll


EmoticonEmoticon