Friday, May 18, 2018

Cara Main Melodi Doraemon [dengan Tab Gitar Video]


Cara bermain melodi doraemon theme

  Kali ini saya akan berbagi cara bermain melodi gitar Doraemon [fingerstyle] menggunakan tab/tablature gitar. Cara bermain melodi gitar doraemon theme ini akan lebih mudah dimengerti, karena menggunakan tab gitar yang bisa di putar videonya sehingga sobat bisa menggunakan video cara bermain melodi gitar doraemon untuk belajar dari bagian awal tab doraemon theme hingga bagian akhir.
  Jika sobat masih merasa kesulitan dalam memainkan/membaca tab gitar doraemon theme ini, pada bagian akhir artikel akan saya kasih link download tab gitarnya, dimana nanti sobat bisa dengan mudah mengurangi/menambahkan tempo dalam pemutaran tab gitar doraemon menggunakan aplikasi android yang juga akan saya berikan link download aplikasinya.
  Namun terlebih dahulu jika sobat merasa repot harus mendownload tab gitar dan aplikasi tab gitarnya, berikut adalah tab gitar cara memainkan melodi doraemon theme yang bisa langsung digunakan dalam belajar fingerstyle melodi doraemon theme.

Tab Gitar Doraemon Theme

 Capo di Fret 2
   1
E-----------------0--5--0----3----
B-----------1--1-------------------
G--4----0--------------------------
D--4--------------------------------
A--------3-----2----0--------------
E------------------------------3----

   2
E--------3--5--3--0--1--0--------
B-------------------------------3--
G--4-------------------------------
D--4------------------0------------
A--------3---------------------0---
E---------------3-------------------

   3
E------------------1--7--7--5--3--
B-----------3--3-------------------
G--4----2--------------------------
D--4----0------------0-------------
A--------------0-------------0-----
E-----------------------------------

   4
E--------1----1--0-----------------
B-------------------------0------1--
G--4-----------------2-------------
D--4----3--------------------------
A-------------3---------------------
E---------------------1------2-----

   5
E-----------------------------------
B--------3--------------------------
G--4-------------0------0----------
D--4----------0---------------------
A------------------------------------
E--------3-----------3------0--2---

   6
E-------------------0--5--0----3---
B------------1--1-------------------
G--4----0--------------------------
D--4--------------------------------
A--------3------2-----0------------
E--------------------------------3--

   7
E--------3--5--3--0--1--0--------
B-------------------------------3---
G--4--------------------------------
D--4------------------0------------
A--------3---------------------0----
E---------------3-------------------

   8
E------------------1--7--7--5--3--
B-----------3--3--------------------
G--4----2---------------------------
D--4----0------------0--------------
A--------------0-------------0------
E------------------------------------

   9
E--------1----1--0------------------
B-----------------------0----3-------
G--4---------------------------------
D--4----3----------------------------
A-------------3--------------2-------
E-----------------------3------------

   10
E---------------------------------
B--------1------------------------
G--4------------------------------
D--4---------------0----2--------
A--------3----3------------------
E---------------------------------

   11
E--------5----5--3-----3-5----3----
B---------------------6--------------
G--4---------------------------------
D--4----3------------3--------------
A-------------3-----------------3---
E------------------------------------

   12
E-----------0--2-------3-----------
B--------3--------3-----------------
G--4--------------------------------
D--4----0-----0--------------------
A------------------------------------
E-----------------------3----3------

   13
E-----------------------------------
B-----------------------------------
G--4----2----0---------------------
D--4---------------0--2--4--0-----
A--------------------------5--------
E--------3----3--------------------

   14
E-----------------------------------
B-----------------------------------
G--4----0--------------0----0-----
D--4-------------0--0-------------
A-----------------------------------
E--------3----3-----3-------3-----

   15
E--------5----3-------------------
B-------------------6-------------
G--4------------------------------
D--4----3----------3-------------
A-------------3----------3-------
E---------------------------------

   16
E-------------7--5--3--5--3--1---
B--------3--------------------------
G--4--------------------------------
D--4----0-----------0--------------
A-------------0------------0--------
E------------------------------------

   17
E--------------3_5----0-------------
B--------------0----------------3----
G--4----------0----------------------
D--4---------------------------------
A----------------------------0--2----
E--------3---------------------------

   18
E------------------------------------
B--------1---------------------------
G--4---------------------------------
D--4---------------------------------
A--------3----------3------0--2-----
E--------------3--------3------------

(Ulangi dari bar 1)


Itulah tadi sob.. tab gitar dari melodi fingerstyle Doraemon Theme, buat pemula emang agak bikin kepala pusing, maka dari itu berikut saya kasih video cara memainkan tab gitar doraemon di atas. Tapi tab gitar yang di atas tadi emang hanya sebagian saja, dan untuk mendapatkan tab gitar full seperti pada video berikut, sobat tinggal download aja disini (ulangi untuk bisa mendownloadnya), dan sobat pastikan untuk mendownload aplikasinya terlebih dahulu agar file bisa dijalankan.



Ok sobat gitar..saran dan masukan dari sobat akan sangat berharga sekali untuk perkembangan blog ini, silahkan berikan komentar pada kolom yang disediakan, tetap semangat dalam belajar bermain gitar dan semoga bisa memberikan manfaat.. 


EmoticonEmoticon