Thursday, May 17, 2018

Chord Lagu Virgoun 'Bukti' [Original Chord] Chord C

  Seperti kita tahu, lagu 'Bukti' dari Virgoun ini merupakan single kedua dari Virgoun setelah meledaknya single pertama yaitu lagu 'surat cinta untuk starla'. Pada kesempatan ini saya akan berbagi chord gitar lagu 'Bukti' dalam versi Chord  gitar dengan chord dasar C pada bagian reff.
  Sekilas tentang chord lagu dari 'Bukti' ini akan coba saya berikan gambar chord gitarnya pada bagian akhir artikel ini. Tujuannya agar bisa membantu sobat yang belum lancar/belum menguasai chord gitar dasar pada lagu 'Bukti' ini.

  Sepertinya gak perlu banyak basa-basi langsung saja, cek chord gitar dari lagu 'Bukti' di bawah ini :


Chord Gitar Lagu Bukti  By : Virgoun


intro : G-D/F#-F-C
           Am-G/B-C-D
G                  D/F#
Memenangkan hatiku
           F                               C
Bukanlah satu hal yang mudah
          Am
Kau berhasil membuat
       D                          G
Ku tak bisa hidup tanpamu..

G             D/F#
Menjaga cinta itu
          F                                 C
Bukanlah suatu hal yang mudah
             Am    
Namun sedetikpun
             D                               G
Tak pernah kau berpaling dariku..
                  Am-G/B-C..   
Beruntungnya a.. ku..
           Am-G/B-D
Dimiliki ka.. mu...

Reff :

C                        D
Kamu adalah bukti
        Dm/F                         C
Dari cantiknya paras dan hati
         Am        G/B        C
Kau jadi harmoni saat ku bernyanyi
               Am             G/B       Em     D
Tentang terang dan gelapnya hidup ini..

C                              D

Kaulah bentuk terindah
         Dm/F                   E
Dari baiknya Tuhan padaku
            Am           G/B             C
Waktu tak mengusaikan cantikmu
          Am          G/B       D
Kau wanita terhebat bagiku
                           G
Tolong kamu camkan itu

Intro : G-D/F#-F-C 


G              D/F#

Meruntuhkan egoku 
          F                                C
Bukanlah satu hal yang mudah
              Am
Dengan kasih lembut 
              D                         G
Kau pecahkan kerasnya hatiku..

                  Am-G/B-C

Beruntungnya a.. ku.. 
                Am-G/B-D
Dimiliki ka.. mu.. (ku ingin engkau tahu)

Reff :

C                        D
Kamu adalah bukti
        Dm/F                         C
Dari cantiknya paras dan hati
         Am        G/B        C
Kau jadi harmoni saat ku bernyanyi
               Am             G/B       Em     D
Tentang terang dan gelapnya hidup ini..

C                              D

Kaulah bentuk terindah
         Dm/F                   E
Dari baiknya Tuhan padaku
            Am           G/B             C
Waktu tak mengusaikan cantikmu
          Am          G/B       D
Kau wanita terhebat bagiku
                           C
Tolong kamu camkan itu

C             G/B             Am
..(Semua yang jadi bukti
                  D            G          Am 
tersimpan di dalam palung hati
            G/B            C
semua yang jadi bukti
                  D           
tersimpan di dalam palung hati)

Reff :

C                        D
Kamu adalah bukti
        Dm/F                         C
Dari cantiknya paras dan hati
         Am        G/B        C
Kau jadi harmoni saat ku bernyanyi
               Am             G/B       Em     D
Tentang terang dan gelapnya hidup ini..

C                              D

Kaulah bentuk terindah
         Dm/F                   E
Dari baiknya Tuhan padaku
            Am           G/B             C
Waktu tak mengusaikan cantikmu
          Am          G/B       D
Kau wanita terhebat bagiku..
                           C
Tolong kamu camkan itu..

Outro : A-E/G#-G-D

             Bm-A/C#-D-E
                            G

 Tolong kamu camkan itu..

~ Selesai ~



  Seperti janji saya pada bagian awal artikel, berikut adalah gambar cHord gitar dari lagu 'Bukti'-Virgoun :
13 chord gitar lagu bukti-virgoun


  Buat sobat yang lagi nyari fingerstyle lagu 'Bukti' , berikut saya berikan dalam bentuk tablatur/tab gitar dari intro lagu 'Bukti' by : Virgoun.

Tab Gitar  Intro dari Lagu Bukti


[Capo di Fret 2] 

   

1
E--------------------------------------------------
B-----3-----------3--1--0--3----------3--1--0--
G--3--------0---------------------2---------------
D--4-----0-----0---------------0----0------------
A--------------------------------------------------
E-----3----------------------2--------------------


3                                                  P.H   

E---------------------------------------------------

B-----1-----------1_3--1--0----------------<5>-
G--3--------0----------------------------<5>-----
D--4-----0----0---------------------<5>----------
A--------------------------------3-----------------
E-----1--------------------------------------------

5
E--------------------------------------------------
B-----1----------1--0---3----------3--1--0------
G--3--------2---------2--------0------------------
D--4-----2----2-------------0----0---------------
A-----0------------------2-------------------------
E---------------------------------------------------



7
E-----0--2--3--3--5--5_7--5------------0_2--
B-----------------------------------------3---------
G--3--------------------5_7--5-------2----------
D--4---------------------------0----0------------
A-----3---------3---------------------------------
E---------------------------------------------------

~Masuk ke lagu~


Jangan lupa tinggalkan komentar, share jika memang menurut sobat bagus dan semoga bermanfaat..

AutoScroll

"Dengan Sharing, Ilmu akan menjadi lebih berharga dan memberi manfaat.." Udah.. Udah..


EmoticonEmoticon